Charlie Brown Jr.
Versão 1
-======-

Cifrada Por: Tiago Augusto (www.legadorock.cjb.net) Banda Legado - Betim-MG.

OBS-1: Escute a música para melhor compreender!
OBS-2: Alguns detalhes não foram tirados! (não tô com tempo!!!) Mas o basico é isso ai!

::Introdução::
Marcando cada Nota
D#, F#, C#, G#

D#, F#, C#, G# (Meio Dedilhado) 

D#, F#, C# (D#), G#                ------>(D#) Sómente uma batida! 
Tiro de traçante...

D#, F#, C#, G# (Abafando)
No circuito da noite mauricios e patricias 
Seguidores da onda iludidos da vida
Eu estava cansado procurei uma saída 
Porque a noite não muda, ela não se recicla

D#, F#, C#, G#
Ser punk não é isso, é muito mais que isso
Ser punk é ter atitude, quem é punk sabe disso
O rap não é viajem, o rap é compromisso
Se liga na missão porque senão fica esquicito

::Refrão::
D#, F#, C# (D#), G#                ------>(D#) Sómente uma batida! 
Se for fazer alguma coisa faça com vontade
Seja você, não fure os olhos da verdade
Se for fazer alguma coisa tenha personalidade
Seja você, não fure os olhos da verdade

D#, F#, C#, G# (Abafando)
Personalidade não, não fique em cima do muro
Quem não conhece o passado
Não entende o futuro, não entende o futuro.

D#, F#, C#, G#
Tipo assim out side, tipo assim meio pop
Eu to cagando pra essa porra de ibope
Sou quem eu sou, não sou como você quer que eu seja
Assim eu sou como eu sou

D#, F#, C# (D#), G#                ------>(D#) Sómente uma batida! 
Viva o rock´n roll...Viva o rock´n roll...Viva o rock´n roll...Viva o rock´n roll...

::Refrão::
D#, F#, C# (D#), G#                ------>(D#) Sómente uma batida! 
Se for fazer alguma coisa faça com vontade
Seja você, não fure os olhos da verdade
Se for fazer alguma coisa tenha personalidade
Seja você, não fure os olhos da verdade


D#, F#, C#, G# (Meio Dedilhado) 
Personalidade
Tiro de traçante...
Tiro de traçante...

D#, F#, C#, G# (Marque apenas a fundamental).

D#, F#, C#, G# (Abafando bem Rápido)

D#, F#, C# (D#), G#                ------>(D#) Sómente uma batida! 

D#, F#, C#, G#

::SOLO:: (Em Breve eu mandarei!) 

e|---------------------------------------------------------------|
B|----------------***************************--------------------|
G|----------------------É---H-o-r-a------------------------------|
D|--------------------------d-e----------------------------------|
A|-----------------I-n-p-r-o-v-i-z-a-r-!-!-!---------------------|
E|----------------***************************--------------------|



::ACORDES USADOS::

    D#    F#   C#     G#
e|------|------|------|------|
B|------|------|------|------|
G|--8---|--11--|---6--|------|
D|--8---|--11--|---6--|---6--|
A|--6---|---9--|---4--|---6--|
E|------|------|------|---4--|



É isso ai 100% Charlie Brown Jr - Lembre-se "Não Deixe o Mar Te Engolir" 
E quando estiver afim de uma gata tenha com ela um bom PAPO RETO, porque papo reto não faz curva!!!

_______________________________________________________




Versão 2
-======-

Intro : 2x 


E|--------------------------------------------------
B|----------------------------------------------
G|-----8--------6-------------------------------
D|-----8---4----6----6--------------------------
A|-----6---4----4----6--------------------------
E|---------2---------4--------------------------



Verso 1 e refrao  : 3x



E|----------------------------------------------
B|----------------------------------------------
G|----8--8--8-----11-11-11----------------------
D|----8--8--8-----11-11-11----11-11-11----6-6-6-
A|----6--6--6------9--9--9----11-11-11----6-6-6-
E|-----------------------------9--9--9----4-4-4-


No final da 3 vez do primeiro verso toca assim




E|-----------------------------------------------
B|-----------------------------------------------
G|-----------------------------------------------
D|----8-8-8---11-11-11-11------------------------
A|----8-8-8---11-11-11-11------------------------
E|----6-6-6---9--9--9--9-------------------------



Verso 2 : 3x  


Na parte "no circuito da noite mauricios e patricias e etc começa so  
com o baixo depois entra na parte "Se a noite nao é isso  é muito mais q 
q isso ai entra essa parte de baixo aki 




E|----------------------------------------------
B|----------------------------------------------
G|-----8-8-8----------6-6-6---------------------
D|-----8-8-8---4-4-4--6-6-6----6-6-6------------
A|-----6-6-6---4-4-4--4-4-4----6-6-6------------
E|-------------2-2-2-----------4-4-4------------





No final da 3 vez do segundo  verso toca assim



E|----------------------------------------------
B|----------------------------------------------
G|----------------------------------------------
D|----8-8-8---11-11-11-11-----------------------
A|----8-8-8---11-11-11-11-----------------------
E|----6-6-6---9--9--9--9------------------------


sequencia 

Depois disso é refrao q esta no verso 1  depois volta tudo de novo 






OBS :Falto o solo daki a pouco eu boto ela aki no ar pra galera valeu é
isso ai charlie brownnnn 
D#|,31435463,3456|3,243352,23456|6,334353,23456|11,233342|8,142364|8,142354,12345|15,243352,23456|18,334353,23456|13,31435463,3456 F#|2,233342|6,243352,23456|4,31435463,3456|9,334353,23456|14,233342|11,142364|11,142354,12345|18,243352,23456|16,31435463,3456 C#|,243341515261,23456|4,334353,23456|9,233342|6,142364|6,142354,12345|13,243352,23456|16,334353,23456|11,31435463,3456|18,142364|18,142354,12345 G#|4,233342|1,142364|1,142354,12345|8,243352,23456|6,31435463,3456|11,334353,23456|16,233342|13,142364|13,142354,12345|18,31435463,3456 Em|,2232|,223263|7,334352,23456|12,2333|,32445563,3456|12,233364|4,24324152,2345|9,142254,12345|9,14223144,1234|19,334352,23456|14,31435462,3456|16,24324152,2345
12-1-yiyu-chu-xuezhe-charlie-brown-jr|12 + 1|Charlie Brown Jr.|charlie-brown-jr.jpg 121-doze-mais-um-yiyu-chu-xuezhe-charlie-brown-jr|12+1 (doze mais um)|Charlie Brown Jr.|charlie-brown-jr.jpg 333-yiyu-chu-xuezhe-charlie-brown-jr|333|Charlie Brown Jr.|charlie-brown-jr.jpg a-banca-yiyu-chu-xuezhe-charlie-brown-jr|A banca|Charlie Brown Jr.|charlie-brown-jr.jpg a-cera-yiyu-chu-xuezhe-charlie-brown-jr|A cera|Charlie Brown Jr.|charlie-brown-jr.jpg a-estrada-yiyu-chu-xuezhe-charlie-brown-jr|A estrada|Charlie Brown Jr.|charlie-brown-jr.jpg a-grande-volta-yiyu-chu-xuezhe-charlie-brown-jr|A grande volta|Charlie Brown Jr.|charlie-brown-jr.jpg abagabalo-yiyu-chu-xuezhe-charlie-brown-jr|Abagabalo|Charlie Brown Jr.|charlie-brown-jr.jpg abrir-seus-olhos-yiyu-chu-xuezhe-charlie-brown-jr|Abrir seus olhos|Charlie Brown Jr.|charlie-brown-jr.jpg aquela-paz-yiyu-chu-xuezhe-charlie-brown-jr|Aquela paz|Charlie Brown Jr.|charlie-brown-jr.jpg aquele-velho-carteado-e-alguma-manobrinhas-yiyu-chu-xuezhe-charlie-brown-jr|Aquele velho carteado e alguma manobrinh|Charlie Brown Jr.|charlie-brown-jr.jpg aquele-velho-carteado-e-algumas-manobrinhas-yiyu-chu-xuezhe-charlie-brown-jr|Aquele Velho Carteado e Algumas Manobrin|Charlie Brown Jr.|charlie-brown-jr.jpg baader-meinhof-blues-yiyu-chu-xuezhe-charlie-brown-jr|Baader-meinhof blues|Charlie Brown Jr.|charlie-brown-jr.jpg bahia-yiyu-chu-xuezhe-charlie-brown-jr|Bahia|Charlie Brown Jr.|charlie-brown-jr.jpg be-myself-yiyu-chu-xuezhe-charlie-brown-jr|Be myself|Charlie Brown Jr.|charlie-brown-jr.jpg 177
yiyu-chu-xuezhe-ed-sheeran|Ed Sheeran|ed-sheeran.jpg?12 yiyu-chu-xuezhe-coldplay|Coldplay|coldplay.jpg yiyu-chu-xuezhe-justin-bieber|Justin Bieber|justin-bieber.jpg yiyu-chu-xuezhe-bruno-mars|Bruno Mars|bruno-mars.jpg yiyu-chu-xuezhe-adele|Adele|adele.jpg yiyu-chu-xuezhe-oasis|Oasis|oasis.jpg yiyu-chu-xuezhe-red-hot-chili-peppers|Red Hot Chili Peppers|red-hot-chili-peppers.jpg yiyu-chu-xuezhe-the-beatles|The Beatles|the-beatles.jpg yiyu-chu-xuezhe-creed|Creed|creed.jpg yiyu-chu-xuezhe-sia|Sia|sia.jpg yiyu-chu-xuezhe-nirvana|Nirvana|nirvana.jpg yiyu-chu-xuezhe-green-day|Green Day|green-day.jpg yiyu-chu-xuezhe-guns-n-roses|Guns N' Roses|guns-n-roses.jpg yiyu-chu-xuezhe-jason-mraz|Jason Mraz|jason-mraz.jpg yiyu-chu-xuezhe-avicii|Avicii|avicii.jpg 50